  0
SECTION
  2
HEADER
  9
$LIMMIN
 10
0.000000
 20
0.000000
  9
$LIMMAX
 10
220.000000
 20
170.000000
  9
$EXTMIN
 10
0.000000
 20
0.000000
  9
$EXTMAX
 10
220.000000
 20
170.000000
  9
$ANGBASE
 50
0.0
  9
$ANGDIR
 70
0
  9
$DIMRND
 40
0.010000
  9
$DIMSE1
 70
0
  9
$DIMSE2
 70
0
  9
$DIMTXT
 40
3.500000
  9
$LTSCALE
 40
1.000000
  9
$LUPREC
 70
2
  9
$AUPREC
 70
2
  9
$PDMODE
 70
2
  9
$PDSIZE
 40
1.100000
  0
ENDSEC
  0
SECTION
  2
TABLES
  0
TABLE
  2
VPORT
  70
1
  0
VPORT
  2
*ACTIVE
 70
0
  10
0.0
 20
0.0
 11
1.0
 21
1.0
 12
594.0
 22
420.0
 13
0.0
 23
0.0
 14
10.0
 24
10.0
 15
10.0
 25
10.0
 16
0.0
 26
0.0
 36
1.0
 17
594.0
 27
420.0
 37
100.0
 40
1000.0
 41
1.0
 42
50.0
 43
0.0
 44
0.0
 50
0.0
 51
0.0
 71
0
 72
2000
 73
1
 74
3
 75
0
 76
0
 77
0
 78
1
  0
ENDTAB
  0
TABLE
  2
LTYPE
 70
4
  0
LTYPE
  2
CONTINUOUS
 70
0
  3
Solid line
 72
65
 73
0
 40
0.0
  0
LTYPE
  2
DASHED
 70
0
  3
Dashed line
 72
65
 73
2
 40
2.362205
 49
1.181102
 49
-1.181102
  0
LTYPE
  2
CENTER
 70
0
  3
Chain line
 72
65
 73
4
 40
9.448819
 49
5.905512
 49
-1.181102
 49
1.181102
 49
-1.181102
  0
LTYPE
  2
RANDOM
 70
0
  3
Random line
 72
65
 73
4
 40
8.858268
 49
2.362205
 49
-1.181102
 49
1.771654
 49
-3.543307
  0
ENDTAB
  0
TABLE
  2
STYLE
 70
9
  0
STYLE
  2
STANDARD
 40
0
 41
1.0
 50
0.0
 71
0
 42
0
  3
simplex
  4

 70
0
  0
ENDTAB
  0
TABLE
  2
LAYER
 70
2
  0
LAYER
  2
0
 70
0
 62
7
  6
CONTINUOUS
  0
LAYER
  2
0
 62
1
  6
CONTINUOUS
 70
0
  0
ENDTAB
  0
ENDSEC
  0
SECTION
  2
BLOCKS
  0
ENDSEC
  0
SECTION
  2
ENTITIES
  0
ARC
  8
0
  6
CONTINUOUS
 62
1
 10
91.169405
 20
110.919030
 40
0.049990
 50
175.179276
 51
304.835140
  0
ARC
  8
0
  6
CONTINUOUS
 62
1
 10
91.089693
 20
110.925736
 40
0.030004
 50
355.211992
 51
66.224159
  0
ARC
  8
0
  6
CONTINUOUS
 62
1
 10
90.824791
 20
110.323988
 40
0.687479
 50
66.239274
 51
68.593497
  0
ARC
  8
0
  6
CONTINUOUS
 62
1
 10
91.064812
 20
110.936139
 40
0.029954
 50
68.667257
 51
140.020589
  0
ARC
  8
0
  6
CONTINUOUS
 62
1
 10
91.003621
 20
110.987539
 40
0.049961
 50
189.922267
 51
319.939284
  0
ARC
  8
0
  6
CONTINUOUS
 62
1
 10
90.924905
 20
110.973630
 40
0.029972
 50
10.185242
 51
81.355408
  0
ARC
  8
0
  6
CONTINUOUS
 62
1
 10
90.826483
 20
110.323544
 40
0.687466
 50
81.389333
 51
83.743458
  0
ARC
  8
0
  6
CONTINUOUS
 62
1
 10
90.898099
 20
110.977116
 40
0.029982
 50
83.671897
 51
154.769815
  0
ARC
  8
0
  6
CONTINUOUS
 62
1
 10
90.825649
 20
111.011137
 40
0.050058
 50
205.114111
 51
334.892233
  0
ARC
  8
0
  6
CONTINUOUS
 62
1
 10
90.753110
 20
110.977120
 40
0.030061
 50
25.141106
 51
95.946740
  0
ARC
  8
0
  6
CONTINUOUS
 62
1
 10
90.827850
 20
110.323961
 40
0.687481
 50
96.502456
 51
98.856698
  0
ARC
  8
0
  6
CONTINUOUS
 62
1
 10
90.726508
 20
110.973545
 40
0.030039
 50
98.625668
 51
169.656294
  0
ARC
  8
0
  6
CONTINUOUS
 62
1
 10
90.647764
 20
110.987779
 40
0.049981
 50
220.215337
 51
349.812932
  0
ARC
  8
0
  6
CONTINUOUS
 62
1
 10
90.586724
 20
110.936177
 40
0.029948
 50
40.202324
 51
111.583641
  0
ARC
  8
0
  6
CONTINUOUS
 62
1
 10
90.825705
 20
110.323630
 40
0.687468
 50
111.324730
 51
113.615555
  0
ARC
  8
0
  6
CONTINUOUS
 62
1
 10
90.562305
 20
110.926030
 40
0.030004
 50
113.574829
 51
184.588989
  0
ARC
  8
0
  6
CONTINUOUS
 62
1
 10
90.482605
 20
110.919430
 40
0.049977
 50
221.782611
 51
4.820740
  0
LINE
  8
0
  6
CONTINUOUS
 62
1
 10
90.445338
 20
110.886130
 11
88.341302
 21
110.885130
  0
ARC
  8
0
  6
CONTINUOUS
 62
1
 10
88.325890
 20
110.761107
 40
0.124977
 50
82.916587
 51
269.915156
  0
ARC
  8
0
  6
CONTINUOUS
 62
1
 10
88.577705
 20
109.825630
 40
0.127000
 50
180.000000
 51
270.000000
  0
LINE
  8
0
  6
CONTINUOUS
 62
1
 10
88.577705
 20
109.698630
 11
88.700705
 21
109.698630
  0
ARC
  8
0
  6
CONTINUOUS
 62
1
 10
88.700705
 20
109.823630
 40
0.125000
 50
270.000000
 51
90.000000
  0
LINE
  8
0
  6
CONTINUOUS
 62
1
 10
88.700705
 20
109.948630
 11
88.700705
 21
110.386130
  0
ARC
  8
0
  6
CONTINUOUS
 62
1
 10
88.950705
 20
110.386130
 40
0.250000
 50
90.000000
 51
180.000000
  0
LINE
  8
0
  6
CONTINUOUS
 62
1
 10
88.950705
 20
110.636130
 11
90.013205
 21
110.636130
  0
ARC
  8
0
  6
CONTINUOUS
 62
1
 10
90.013205
 20
110.386130
 40
0.250000
 50
0.000000
 51
90.000000
  0
LINE
  8
0
  6
CONTINUOUS
 62
1
 10
90.263205
 20
110.386130
 11
90.263205
 21
110.011130
  0
ARC
  8
0
  6
CONTINUOUS
 62
1
 10
90.513205
 20
110.011130
 40
0.250000
 50
180.000000
 51
270.000000
  0
LINE
  8
0
  6
CONTINUOUS
 62
1
 10
90.513205
 20
109.761130
 11
91.131905
 21
109.761130
  0
ARC
  8
0
  6
CONTINUOUS
 62
1
 10
91.131905
 20
110.011130
 40
0.250000
 50
270.000000
 51
314.400330
  0
ARC
  8
0
  6
CONTINUOUS
 62
1
 10
90.825615
 20
110.323607
 40
0.687556
 50
314.417380
 51
23.677764
  0
ARC
  8
0
  6
CONTINUOUS
 62
1
 10
91.427790
 20
110.587729
 40
0.030004
 50
23.565238
 51
94.766493
  0
ARC
  8
0
  6
CONTINUOUS
 62
1
 10
91.421179
 20
110.667436
 40
0.049977
 50
145.315264
 51
274.726500
  0
ARC
  8
0
  6
CONTINUOUS
 62
1
 10
91.355465
 20
110.712949
 40
0.029959
 50
325.257737
 51
36.527766
  0
ARC
  8
0
  6
CONTINUOUS
 62
1
 10
90.824447
 20
110.325206
 40
0.687472
 50
36.153565
 51
38.507390
  0
ARC
  8
0
  6
CONTINUOUS
 62
1
 10
91.339016
 20
110.734534
 40
0.029954
 50
38.637211
 51
109.906620
  0
ARC
  8
0
  6
CONTINUOUS
 62
1
 10
91.311790
 20
110.809689
 40
0.049980
 50
160.064212
 51
289.917880
  0
ARC
  8
0
  6
CONTINUOUS
 62
1
 10
91.236605
 20
110.836930
 40
0.029988
 50
340.114746
 51
51.369812
  0
ARC
  8
0
  6
CONTINUOUS
 62
1
 10
90.826376
 20
110.323138
 40
0.687461
 50
51.393853
 51
53.754549
  0
LINE
  8
0
  6
CONTINUOUS
 62
1
 10
88.325705
 20
110.636130
 11
88.450705
 21
110.636130
  0
LINE
  8
0
  6
CONTINUOUS
 62
1
 10
88.450705
 20
110.636130
 11
88.450705
 21
109.825630
  0
CIRCLE
  8
0
  6
CONTINUOUS
 62
1
 10
90.825705
 20
110.323630
 40
0.437493
  0
CIRCLE
  8
0
  6
CONTINUOUS
 62
1
 10
91.155805
 20
109.875530
 40
0.080035
  0
ARC
  8
0
  6
CONTINUOUS
 62
1
 10
91.215097
 20
110.853374
 40
0.030000
 50
53.754549
 51
124.835140
  0
ENDSEC
  0
EOF
